ISO-10303-21;
HEADER;
FILE_DESCRIPTION (( 'STEP AP203' ),
    '1' );
FILE_NAME ('QB-CTZQWP-25.4-894-M.STEP',
    '2020-12-24T01:51:41',
    ( '' ),
    ( '' ),
    'SwSTEP 2.0',
    'SolidWorks 2020',
    '' );
FILE_SCHEMA (( 'CONFIG_CONTROL_DESIGN' ));
ENDSEC;

DATA;
#1 = DATE_TIME_ROLE ( 'classification_date' ) ;
#2 = APPROVAL_ROLE ( '' ) ;
#3 = CARTESIAN_POINT ( 'NONE',  ( 3.000000000000000000, 1.836970198721029589E-15, -15.00000000000000000 ) ) ;
#4 = FACE_OUTER_BOUND ( 'NONE', #156, .T. ) ;
#5 = AXIS2_PLACEMENT_3D ( 'NONE', #37, #82, #165 ) ;
#6 = EDGE_LOOP ( 'NONE', ( #7, #159, #20, #22 ) ) ;
#7 = ORIENTED_EDGE ( 'NONE', *, *, #9, .T. ) ;
#8 = FACE_OUTER_BOUND ( 'NONE', #149, .T. ) ;
#9 = EDGE_CURVE ( 'NONE', #91, #76, #21, .T. ) ;
#10 = PERSON ( 'UNSPECIFIED', 'UNSPECIFIED', 'UNSPECIFIED', ('UNSPECIFIED'), ('UNSPECIFIED'), ('UNSPECIFIED') ) ;
#11 =( LENGTH_UNIT ( ) NAMED_UNIT ( * ) SI_UNIT ( .MILLI., .METRE. ) );
#12 = CARTESIAN_POINT ( 'NONE',  ( 3.000000000000000000, 0.000000000000000000, 15.00000000000000000 ) ) ;
#13 = COORDINATED_UNIVERSAL_TIME_OFFSET ( 8, 0, .AHEAD. ) ;
#14 = DESIGN_CONTEXT ( 'detailed design', #104, 'design' ) ;
#15 = CALENDAR_DATE ( 2020, 24, 12 ) ;
#16 = ADVANCED_FACE ( 'NONE', ( #114 ), #36, .F. ) ;
#17 = LOCAL_TIME ( 9, 51, 41.00000000000000000, #161 ) ;
#18 = CC_DESIGN_PERSON_AND_ORGANIZATION_ASSIGNMENT ( #59, #137, ( #30 ) ) ;
#19 = CARTESIAN_POINT ( 'NONE',  ( -3.000000000000000000, 0.000000000000000000, 0.000000000000000000 ) ) ;
#20 = ORIENTED_EDGE ( 'NONE', *, *, #115, .F. ) ;
#21 = CIRCLE ( 'NONE', #164, 15.00000000000000000 ) ;
#22 = ORIENTED_EDGE ( 'NONE', *, *, #101, .F. ) ;
#23 = EDGE_LOOP ( 'NONE', ( #33, #147 ) ) ;
#24 = CC_DESIGN_PERSON_AND_ORGANIZATION_ASSIGNMENT ( #106, #53, ( #34 ) ) ;
#25 = CARTESIAN_POINT ( 'NONE',  ( -1.614212418857619014, 0.000000000000000000, 15.00000000000000000 ) ) ;
#26 = LINE ( 'NONE', #25, #167 ) ;
#27 =( NAMED_UNIT ( * ) PLANE_ANGLE_UNIT ( ) SI_UNIT ( $, .RADIAN. ) );
#28 = DIRECTION ( 'NONE',  ( -1.000000000000000000, -0.000000000000000000, -0.000000000000000000 ) ) ;
#29 = PERSON_AND_ORGANIZATION_ROLE ( 'creator' ) ;
#30 = PRODUCT_DEFINITION_FORMATION_WITH_SPECIFIED_SOURCE ( 'ANY', '', #34, .NOT_KNOWN. ) ;
#31 = SECURITY_CLASSIFICATION_LEVEL ( 'unclassified' ) ;
#32 = AXIS2_PLACEMENT_3D ( 'NONE', #49, #103, #168 ) ;
#33 = ORIENTED_EDGE ( 'NONE', *, *, #9, .F. ) ;
#34 = PRODUCT ( 'QB-CTZQWP-25.4-894-M', 'QB-CTZQWP-25.4-894-M', '', ( #95 ) ) ;
#35 = VECTOR ( 'NONE', #28, 1000.000000000000000 ) ;
#36 = PLANE ( 'NONE',  #100 ) ;
#37 = CARTESIAN_POINT ( 'NONE',  ( -1.614212418857619014, 0.000000000000000000, 0.000000000000000000 ) ) ;
#38 = DATE_AND_TIME ( #160, #141 ) ;
#39 = CARTESIAN_POINT ( 'NONE',  ( -3.000000000000000000, 1.836970198721029589E-15, -15.00000000000000000 ) ) ;
#40 = APPROVAL_ROLE ( '' ) ;
#41 = CARTESIAN_POINT ( 'NONE',  ( -1.614212418857619014, 1.836970198721029589E-15, -15.00000000000000000 ) ) ;
#42 = CARTESIAN_POINT ( 'NONE',  ( -1.614212418857619014, 0.000000000000000000, 0.000000000000000000 ) ) ;
#43 = CARTESIAN_POINT ( 'NONE',  ( -3.000000000000000000, 0.000000000000000000, 0.000000000000000000 ) ) ;
#44 = PERSON_AND_ORGANIZATION ( #10, #63 ) ;
#45 = CC_DESIGN_APPROVAL ( #155, ( #30 ) ) ;
#46 = LINE ( 'NONE', #41, #35 ) ;
#47 = APPROVAL_PERSON_ORGANIZATION ( #121, #166, #123 ) ;
#48 = ADVANCED_FACE ( 'NONE', ( #4 ), #170, .F. ) ;
#49 = CARTESIAN_POINT ( 'NONE',  ( -3.000000000000000888, 12.69999999999999929, 0.000000000000000000 ) ) ;
#50 = APPROVAL_PERSON_ORGANIZATION ( #105, #117, #40 ) ;
#51 = AXIS2_PLACEMENT_3D ( 'NONE', #151, #132, #130 ) ;
#52 = COORDINATED_UNIVERSAL_TIME_OFFSET ( 8, 0, .AHEAD. ) ;
#53 = PERSON_AND_ORGANIZATION_ROLE ( 'design_owner' ) ;
#54 = EDGE_CURVE ( 'NONE', #129, #110, #142, .T. ) ;
#55 = APPROVAL_PERSON_ORGANIZATION ( #44, #155, #2 ) ;
#56 = DIRECTION ( 'NONE',  ( 0.000000000000000000, 0.000000000000000000, 1.000000000000000000 ) ) ;
#57 = CARTESIAN_POINT ( 'NONE',  ( -3.000000000000000000, 0.000000000000000000, 15.00000000000000000 ) ) ;
#58 = CIRCLE ( 'NONE', #72, 15.00000000000000000 ) ;
#59 = PERSON_AND_ORGANIZATION ( #10, #63 ) ;
#60 = PRODUCT_DEFINITION ( 'UNKNOWN', '', #30, #14 ) ;
#61 = PRODUCT_DEFINITION_SHAPE ( 'NONE', 'NONE',  #60 ) ;
#62 = CALENDAR_DATE ( 2020, 24, 12 ) ;
#63 = ORGANIZATION ( 'UNSPECIFIED', 'UNSPECIFIED', '' ) ;
#64 = DIRECTION ( 'NONE',  ( -1.000000000000000000, 0.000000000000000000, -0.000000000000000000 ) ) ;
#65 = ORIENTED_EDGE ( 'NONE', *, *, #101, .T. ) ;
#66 = PERSON_AND_ORGANIZATION_ROLE ( 'creator' ) ;
#67 = MANIFOLD_SOLID_BREP ( 'Ðý×', #169 ) ;
#68 = LOCAL_TIME ( 9, 51, 41.00000000000000000, #13 ) ;
#69 = SHAPE_DEFINITION_REPRESENTATION ( #61, #146 ) ;
#70 = COORDINATED_UNIVERSAL_TIME_OFFSET ( 8, 0, .AHEAD. ) ;
#71 = APPROVAL_STATUS ( 'not_yet_approved' ) ;
#72 = AXIS2_PLACEMENT_3D ( 'NONE', #43, #134, #118 ) ;
#73 = PRODUCT_RELATED_PRODUCT_CATEGORY ( 'detail', '', ( #34 ) ) ;
#74 = DIRECTION ( 'NONE',  ( -1.000000000000000000, -0.000000000000000000, -0.000000000000000000 ) ) ;
#75 = CC_DESIGN_APPROVAL ( #166, ( #148 ) ) ;
#76 = VERTEX_POINT ( 'NONE', #3 ) ;
#77 = EDGE_CURVE ( 'NONE', #76, #129, #46, .T. ) ;
#78 = ORIENTED_EDGE ( 'NONE', *, *, #54, .F. ) ;
#79 = ORIENTED_EDGE ( 'NONE', *, *, #143, .T. ) ;
#80 = DIRECTION ( 'NONE',  ( 0.000000000000000000, 0.000000000000000000, 1.000000000000000000 ) ) ;
#81 = FACE_OUTER_BOUND ( 'NONE', #6, .T. ) ;
#82 = DIRECTION ( 'NONE',  ( -1.000000000000000000, -0.000000000000000000, -0.000000000000000000 ) ) ;
#83 = DIRECTION ( 'NONE',  ( -1.000000000000000000, -0.000000000000000000, -0.000000000000000000 ) ) ;
#84 = ADVANCED_FACE ( 'NONE', ( #8 ), #171, .T. ) ;
#85 = CARTESIAN_POINT ( 'NONE',  ( 0.000000000000000000, 0.000000000000000000, 0.000000000000000000 ) ) ;
#86 = APPLICATION_CONTEXT ( 'configuration controlled 3d designs of mechanical parts and assemblies' ) ;
#87 = DATE_AND_TIME ( #62, #173 ) ;
#88 = DATE_AND_TIME ( #15, #68 ) ;
#89 = CC_DESIGN_PERSON_AND_ORGANIZATION_ASSIGNMENT ( #97, #29, ( #30 ) ) ;
#90 = ORIENTED_EDGE ( 'NONE', *, *, #77, .F. ) ;
#91 = VERTEX_POINT ( 'NONE', #12 ) ;
#92 = CC_DESIGN_DATE_AND_TIME_ASSIGNMENT ( #38, #94, ( #60 ) ) ;
#93 = CARTESIAN_POINT ( 'NONE',  ( 3.000000000000000888, 12.69999999999999929, 0.000000000000000000 ) ) ;
#94 = DATE_TIME_ROLE ( 'creation_date' ) ;
#95 = MECHANICAL_CONTEXT ( 'NONE', #86, 'mechanical' ) ;
#96 = DATE_AND_TIME ( #174, #17 ) ;
#97 = PERSON_AND_ORGANIZATION ( #10, #63 ) ;
#98 = PERSON_AND_ORGANIZATION_ROLE ( 'classification_officer' ) ;
#99 = COORDINATED_UNIVERSAL_TIME_OFFSET ( 8, 0, .AHEAD. ) ;
#100 = AXIS2_PLACEMENT_3D ( 'NONE', #93, #64, #113 ) ;
#101 = EDGE_CURVE ( 'NONE', #91, #110, #26, .T. ) ;
#102 = CC_DESIGN_DATE_AND_TIME_ASSIGNMENT ( #88, #1, ( #148 ) ) ;
#103 = DIRECTION ( 'NONE',  ( 1.000000000000000000, 0.000000000000000000, 0.000000000000000000 ) ) ;
#104 = APPLICATION_CONTEXT ( 'configuration controlled 3d designs of mechanical parts and assemblies' ) ;
#105 = PERSON_AND_ORGANIZATION ( #10, #63 ) ;
#106 = PERSON_AND_ORGANIZATION ( #10, #63 ) ;
#107 = APPROVAL_DATE_TIME ( #96, #117 ) ;
#108 = APPROVAL_STATUS ( 'not_yet_approved' ) ;
#109 = AXIS2_PLACEMENT_3D ( 'NONE', #42, #150, #56 ) ;
#110 = VERTEX_POINT ( 'NONE', #57 ) ;
#111 = AXIS2_PLACEMENT_3D ( 'NONE', #85, #172, #162 ) ;
#112 = CC_DESIGN_PERSON_AND_ORGANIZATION_ASSIGNMENT ( #139, #98, ( #148 ) ) ;
#113 = DIRECTION ( 'NONE',  ( -0.000000000000000000, 0.000000000000000000, 1.000000000000000000 ) ) ;
#114 = FACE_OUTER_BOUND ( 'NONE', #23, .T. ) ;
#115 = EDGE_CURVE ( 'NONE', #110, #129, #58, .T. ) ;
#116 = APPLICATION_PROTOCOL_DEFINITION ( 'international standard', 'config_control_design', 1994, #104 ) ;
#117 = APPROVAL ( #152, 'UNSPECIFIED' ) ;
#118 = DIRECTION ( 'NONE',  ( 0.000000000000000000, 0.000000000000000000, 1.000000000000000000 ) ) ;
#119 =( NAMED_UNIT ( * ) SI_UNIT ( $, .STERADIAN. ) SOLID_ANGLE_UNIT ( ) );
#120 = CC_DESIGN_PERSON_AND_ORGANIZATION_ASSIGNMENT ( #163, #66, ( #60 ) ) ;
#121 = PERSON_AND_ORGANIZATION ( #10, #63 ) ;
#122 = ADVANCED_FACE ( 'NONE', ( #81 ), #131, .T. ) ;
#123 = APPROVAL_ROLE ( '' ) ;
#124 = AXIS2_PLACEMENT_3D ( 'NONE', #19, #74, #126 ) ;
#125 = UNCERTAINTY_MEASURE_WITH_UNIT (LENGTH_MEASURE( 1.000000000000000082E-05 ), #11, 'distance_accuracy_value', 'NONE');
#126 = DIRECTION ( 'NONE',  ( 0.000000000000000000, 0.000000000000000000, 1.000000000000000000 ) ) ;
#127 = CARTESIAN_POINT ( 'NONE',  ( 3.000000000000000000, 0.000000000000000000, 0.000000000000000000 ) ) ;
#128 = ORIENTED_EDGE ( 'NONE', *, *, #54, .T. ) ;
#129 = VERTEX_POINT ( 'NONE', #39 ) ;
#130 = DIRECTION ( 'NONE',  ( 0.000000000000000000, 0.000000000000000000, 1.000000000000000000 ) ) ;
#131 = CYLINDRICAL_SURFACE ( 'NONE', #109, 15.00000000000000000 ) ;
#132 = DIRECTION ( 'NONE',  ( -1.000000000000000000, -0.000000000000000000, -0.000000000000000000 ) ) ;
#133 = LOCAL_TIME ( 9, 51, 41.00000000000000000, #99 ) ;
#134 = DIRECTION ( 'NONE',  ( -1.000000000000000000, -0.000000000000000000, -0.000000000000000000 ) ) ;
#135 =( GEOMETRIC_REPRESENTATION_CONTEXT ( 3 ) GLOBAL_UNCERTAINTY_ASSIGNED_CONTEXT ( ( #125 ) ) GLOBAL_UNIT_ASSIGNED_CONTEXT ( ( #11, #27, #119 ) ) REPRESENTATION_CONTEXT ( 'NONE', 'WORKASPACE' ) );
#136 = APPLICATION_PROTOCOL_DEFINITION ( 'international standard', 'config_control_design', 1994, #86 ) ;
#137 = PERSON_AND_ORGANIZATION_ROLE ( 'design_supplier' ) ;
#138 = CC_DESIGN_SECURITY_CLASSIFICATION ( #148, ( #30 ) ) ;
#139 = PERSON_AND_ORGANIZATION ( #10, #63 ) ;
#140 = DATE_AND_TIME ( #175, #133 ) ;
#141 = LOCAL_TIME ( 9, 51, 41.00000000000000000, #52 ) ;
#142 = CIRCLE ( 'NONE', #124, 15.00000000000000000 ) ;
#143 = EDGE_CURVE ( 'NONE', #76, #91, #157, .T. ) ;
#144 = APPROVAL_DATE_TIME ( #140, #166 ) ;
#145 = ORIENTED_EDGE ( 'NONE', *, *, #115, .T. ) ;
#146 = ADVANCED_BREP_SHAPE_REPRESENTATION ( 'QB-CTZQWP-25.4-894-M', ( #67, #111 ), #135 ) ;
#147 = ORIENTED_EDGE ( 'NONE', *, *, #143, .F. ) ;
#148 = SECURITY_CLASSIFICATION ( '', '', #31 ) ;
#149 = EDGE_LOOP ( 'NONE', ( #90, #79, #65, #78 ) ) ;
#150 = DIRECTION ( 'NONE',  ( -1.000000000000000000, -0.000000000000000000, -0.000000000000000000 ) ) ;
#151 = CARTESIAN_POINT ( 'NONE',  ( 3.000000000000000000, 0.000000000000000000, 0.000000000000000000 ) ) ;
#152 = APPROVAL_STATUS ( 'not_yet_approved' ) ;
#153 = CC_DESIGN_APPROVAL ( #117, ( #60 ) ) ;
#154 = APPROVAL_DATE_TIME ( #87, #155 ) ;
#155 = APPROVAL ( #71, 'UNSPECIFIED' ) ;
#156 = EDGE_LOOP ( 'NONE', ( #145, #128 ) ) ;
#157 = CIRCLE ( 'NONE', #51, 15.00000000000000000 ) ;
#158 = DIRECTION ( 'NONE',  ( -1.000000000000000000, -0.000000000000000000, -0.000000000000000000 ) ) ;
#159 = ORIENTED_EDGE ( 'NONE', *, *, #77, .T. ) ;
#160 = CALENDAR_DATE ( 2020, 24, 12 ) ;
#161 = COORDINATED_UNIVERSAL_TIME_OFFSET ( 8, 0, .AHEAD. ) ;
#162 = DIRECTION ( 'NONE',  ( 1.000000000000000000, 0.000000000000000000, 0.000000000000000000 ) ) ;
#163 = PERSON_AND_ORGANIZATION ( #10, #63 ) ;
#164 = AXIS2_PLACEMENT_3D ( 'NONE', #127, #158, #80 ) ;
#165 = DIRECTION ( 'NONE',  ( 0.000000000000000000, 0.000000000000000000, 1.000000000000000000 ) ) ;
#166 = APPROVAL ( #108, 'UNSPECIFIED' ) ;
#167 = VECTOR ( 'NONE', #83, 1000.000000000000000 ) ;
#168 = DIRECTION ( 'NONE',  ( 0.000000000000000000, 0.000000000000000000, -1.000000000000000000 ) ) ;
#169 = CLOSED_SHELL ( 'NONE', ( #122, #16, #84, #48 ) ) ;
#170 = PLANE ( 'NONE',  #32 ) ;
#171 = CYLINDRICAL_SURFACE ( 'NONE', #5, 15.00000000000000000 ) ;
#172 = DIRECTION ( 'NONE',  ( 0.000000000000000000, 0.000000000000000000, 1.000000000000000000 ) ) ;
#173 = LOCAL_TIME ( 9, 51, 41.00000000000000000, #70 ) ;
#174 = CALENDAR_DATE ( 2020, 24, 12 ) ;
#175 = CALENDAR_DATE ( 2020, 24, 12 ) ;
ENDSEC;
END-ISO-10303-21;
